Vari Atians Afuh Dream

by Marty Straub
            G5                          G5                            
|------7--------------------|------7----------------------|
|------5---------5-------3--|------5---------5------3-----|
|-------------------5-------|-------------------5------5--|
|-6--------3----------------|-6--------3------------------|
                                

       G5                                  G5                            
|-------7---------------------3----|--------7-----------------------3---|
|-------5----------5-----3---------|--------5----------5--------3-------|
 ---------------------5------------|------------------------5-----------|
|--6---------3---------------------|--6----------3----------------------|


|--7--------5-------------------------------3--5--
|--------------8----------------------5-----------
|-------------------5------------5----------------
|--------6-------------3----6---------------------
                                  

                                                                    
|--7--------5--------------------------|
|--------------8------------------5----|
|-------------------5--------5---------|
|--------6-------------3--6------------|

G5                                       G5  
|-------7----6------------------3----|---------7----6------------------3----
|-------5------------------3---------|---------5------------------3---------
|---------------------5--------------|-----------------------5--------------
|--6------------3--------------------|----6-------------3--------------------



 Bb5               
|--10-------------------------------------------------------------
|--8--------------------------------------------------------------
|-----------------------------------------------------------------
|--6--------------------------------------------------------------

   Good luck jumping to THIS chord.                



The measures here correspond to the measures in the notation, i.e. without regard for repeats.


Tell me what you think. You'll have to change the AT to @ to prove you're human.
Then go back to the Practice Clips
or try Another Variations

2003 Mell-O-Dee-O-Dough Music